  0
SECTION
  2
HEADER
  9
$ACADVER
  1
AC1015
  9
$ACADMAINTVER
 70
     6
  9
$DWGCODEPAGE
  3
ANSI_1254
  9
$INSBASE
 10
0.0
 20
0.0
 30
0.0
  9
$EXTMIN
 10
0.0
 20
0.0
 30
0.0
  9
$EXTMAX
 10
279.4
 20
215.9
 30
0.0
  9
$LIMMIN
 10
0.0
 20
0.0
  9
$LIMMAX
 10
279.4
 20
215.9
  9
$ORTHOMODE
 70
     0
  9
$REGENMODE
 70
     1
  9
$FILLMODE
 70
     1
  9
$QTEXTMODE
 70
     0
  9
$MIRRTEXT
 70
     1
  9
$LTSCALE
 40
1.0
  9
$ATTMODE
 70
     1
  9
$TEXTSIZE
 40
3.5
  9
$TRACEWID
 40
1.0
  9
$TEXTSTYLE
  7
Standard
  9
$CLAYER
  8
0
  9
$CELTYPE
  6
ByLayer
  9
$CECOLOR
 62
   256
  9
$CELTSCALE
 40
1.0
  9
$DISPSILH
 70
     0
  9
$DIMSCALE
 40
1.0
  9
$DIMASZ
 40
3.5
  9
$DIMEXO
 40
1.0
  9
$DIMDLI
 40
3.75
  9
$DIMRND
 40
0.0
  9
$DIMDLE
 40
0.0
  9
$DIMEXE
 40
1.0
  9
$DIMTP
 40
0.0
  9
$DIMTM
 40
0.0
  9
$DIMTXT
 40
3.5
  9
$DIMCEN
 40
2.5
  9
$DIMTSZ
 40
0.0
  9
$DIMTOL
 70
     0
  9
$DIMLIM
 70
     0
  9
$DIMTIH
 70
     1
  9
$DIMTOH
 70
     1
  9
$DIMSE1
 70
     0
  9
$DIMSE2
 70
     0
  9
$DIMTAD
 70
     1
  9
$DIMZIN
 70
     0
  9
$DIMBLK
  1

  9
$DIMASO
 70
     1
  9
$DIMSHO
 70
     1
  9
$DIMPOST
  1

  9
$DIMAPOST
  1

  9
$DIMALT
 70
     0
  9
$DIMALTD
 70
     3
  9
$DIMALTF
 40
0.0393700787
  9
$DIMLFAC
 40
1.0
  9
$DIMTOFL
 70
     1
  9
$DIMTVP
 40
0.0
  9
$DIMTIX
 70
     0
  9
$DIMSOXD
 70
     0
  9
$DIMSAH
 70
     0
  9
$DIMBLK1
  1

  9
$DIMBLK2
  1

  9
$DIMSTYLE
  2
ISO-25
  9
$DIMCLRD
 70
     0
  9
$DIMCLRE
 70
     0
  9
$DIMCLRT
 70
     0
  9
$DIMTFAC
 40
1.0
  9
$DIMGAP
 40
1.524
  9
$DIMJUST
 70
     0
  9
$DIMSD1
 70
     0
  9
$DIMSD2
 70
     0
  9
$DIMTOLJ
 70
     0
  9
$DIMTZIN
 70
     0
  9
$DIMALTZ
 70
     0
  9
$DIMALTTZ
 70
     0
  9
$DIMUPT
 70
     0
  9
$DIMDEC
 70
     2
  9
$DIMTDEC
 70
     2
  9
$DIMALTU
 70
     2
  9
$DIMALTTD
 70
     3
  9
$DIMTXSTY
  7
Standard
  9
$DIMAUNIT
 70
     0
  9
$DIMADEC
 70
     2
  9
$DIMALTRND
 40
0.0
  9
$DIMAZIN
 70
     0
  9
$DIMDSEP
 70
    44
  9
$DIMATFIT
 70
     3
  9
$DIMFRAC
 70
     0
  9
$DIMLDRBLK
  1

  9
$DIMLUNIT
 70
     2
  9
$DIMLWD
 70
    -2
  9
$DIMLWE
 70
    -2
  9
$DIMTMOVE
 70
     0
  9
$LUNITS
 70
     2
  9
$LUPREC
 70
     2
  9
$SKETCHINC
 40
1.0
  9
$FILLETRAD
 40
10.0
  9
$AUNITS
 70
     0
  9
$AUPREC
 70
     2
  9
$MENU
  1
.
  9
$ELEVATION
 40
0.0
  9
$PELEVATION
 40
0.0
  9
$THICKNESS
 40
0.0
  9
$LIMCHECK
 70
     0
  9
$CHAMFERA
 40
0.0
  9
$CHAMFERB
 40
0.0
  9
$CHAMFERC
 40
0.0
  9
$CHAMFERD
 40
0.0
  9
$SKPOLY
 70
     0
  9
$TDCREATE
 40
2459947.548337326
  9
$TDUCREATE
 40
2459947.423337326
  9
$TDUPDATE
 40
2459947.548337431
  9
$TDUUPDATE
 40
2459947.423337431
  9
$TDINDWG
 40
0.0000000116
  9
$TDUSRTIMER
 40
0.0000000116
  9
$USRTIMER
 70
     1
  9
$ANGBASE
 50
0.0
  9
$ANGDIR
 70
     0
  9
$PDMODE
 70
     0
  9
$PDSIZE
 40
-1.0
  9
$PLINEWID
 40
0.0
  9
$SPLFRAME
 70
     0
  9
$SPLINETYPE
 70
     6
  9
$SPLINESEGS
 70
     8
  9
$HANDSEED
  5
F0
  9
$SURFTAB1
 70
     6
  9
$SURFTAB2
 70
     6
  9
$SURFTYPE
 70
     6
  9
$SURFU
 70
     6
  9
$SURFV
 70
     6
  9
$UCSBASE
  2

  9
$UCSNAME
  2

  9
$UCSORG
 10
0.0
 20
0.0
 30
0.0
  9
$UCSXDIR
 10
1.0
 20
0.0
 30
0.0
  9
$UCSYDIR
 10
0.0
 20
1.0
 30
0.0
  9
$UCSORTHOREF
  2

  9
$UCSORTHOVIEW
 70
     0
  9
$UCSORGTOP
 10
0.0
 20
0.0
 30
0.0
  9
$UCSORGBOTTOM
 10
0.0
 20
0.0
 30
0.0
  9
$UCSORGLEFT
 10
0.0
 20
0.0
 30
0.0
  9
$UCSORGRIGHT
 10
0.0
 20
0.0
 30
0.0
  9
$UCSORGFRONT
 10
0.0
 20
0.0
 30
0.0
  9
$UCSORGBACK
 10
0.0
 20
0.0
 30
0.0
  9
$PUCSBASE
  2

  9
$PUCSNAME
  2

  9
$PUCSORG
 10
0.0
 20
0.0
 30
0.0
  9
$PUCSXDIR
 10
1.0
 20
0.0
 30
0.0
  9
$PUCSYDIR
 10
0.0
 20
1.0
 30
0.0
  9
$PUCSORTHOREF
  2

  9
$PUCSORTHOVIEW
 70
     0
  9
$PUCSORGTOP
 10
0.0
 20
0.0
 30
0.0
  9
$PUCSORGBOTTOM
 10
0.0
 20
0.0
 30
0.0
  9
$PUCSORGLEFT
 10
0.0
 20
0.0
 30
0.0
  9
$PUCSORGRIGHT
 10
0.0
 20
0.0
 30
0.0
  9
$PUCSORGFRONT
 10
0.0
 20
0.0
 30
0.0
  9
$PUCSORGBACK
 10
0.0
 20
0.0
 30
0.0
  9
$USERI1
 70
     0
  9
$USERI2
 70
     0
  9
$USERI3
 70
     0
  9
$USERI4
 70
     0
  9
$USERI5
 70
     0
  9
$USERR1
 40
0.0
  9
$USERR2
 40
0.0
  9
$USERR3
 40
0.0
  9
$USERR4
 40
0.0
  9
$USERR5
 40
0.0
  9
$WORLDVIEW
 70
     1
  9
$SHADEDGE
 70
     3
  9
$SHADEDIF
 70
    70
  9
$TILEMODE
 70
     1
  9
$MAXACTVP
 70
    64
  9
$PINSBASE
 10
0.0
 20
0.0
 30
0.0
  9
$PLIMCHECK
 70
     0
  9
$PEXTMIN
 10
1.0000000000E+20
 20
1.0000000000E+20
 30
1.0000000000E+20
  9
$PEXTMAX
 10
-1.0000000000E+20
 20
-1.0000000000E+20
 30
-1.0000000000E+20
  9
$PLIMMIN
 10
0.0
 20
0.0
  9
$PLIMMAX
 10
420.0
 20
297.0
  9
$UNITMODE
 70
     0
  9
$VISRETAIN
 70
     1
  9
$PLINEGEN
 70
     0
  9
$PSLTSCALE
 70
     1
  9
$TREEDEPTH
 70
  3020
  9
$CMLSTYLE
  2
Standard
  9
$CMLJUST
 70
     0
  9
$CMLSCALE
 40
20.0
  9
$PROXYGRAPHICS
 70
     1
  9
$MEASUREMENT
 70
     1
  9
$CELWEIGHT
370
    -1
  9
$ENDCAPS
280
     0
  9
$JOINSTYLE
280
     0
  9
$LWDISPLAY
290
     1
  9
$INSUNITS
 70
     4
  9
$HYPERLINKBASE
  1

  9
$STYLESHEET
  1

  9
$XEDIT
290
     1
  9
$CEPSNTYPE
380
     0
  9
$PSTYLEMODE
290
     1
  9
$FINGERPRINTGUID
  2
{35f6a9d6-179b-47f1-8104-88e3815150cb}
  9
$VERSIONGUID
  2
{FAEB1C32-E019-11D5-929B-00C0DF256EC4}
  9
$EXTNAMES
290
     1
  9
$PSVPSCALE
 40
0.0
  9
$OLESTARTUP
290
     0
  0
ENDSEC
  0
SECTION
  2
CLASSES
  0
CLASS
  1
ACDBDICTIONARYWDFLT
  2
AcDbDictionaryWithDefault
  3
ObjectDBX Classes
 90
        0
280
     0
281
     0
  0
CLASS
  1
VISUALSTYLE
  2
AcDbVisualStyle
  3
ObjectDBX Classes
 90
     4095
280
     0
281
     0
  0
CLASS
  1
MATERIAL
  2
AcDbMaterial
  3
ObjectDBX Classes
 90
     1153
280
     0
281
     0
  0
CLASS
  1
SCALE
  2
AcDbScale
  3
ObjectDBX Classes
 90
     1153
280
     0
281
     0
  0
CLASS
  1
TABLESTYLE
  2
AcDbTableStyle
  3
ObjectDBX Classes
 90
     4095
280
     0
281
     0
  0
CLASS
  1
MLEADERSTYLE
  2
AcDbMLeaderStyle
  3
ACDB_MLEADERSTYLE_CLASS
 90
     4095
280
     0
281
     0
  0
CLASS
  1
SUN
  2
AcDbSun
  3
SCENEOE
 90
     1153
280
     0
281
     0
  0
CLASS
  1
ACDBPLACEHOLDER
  2
AcDbPlaceHolder
  3
ObjectDBX Classes
 90
        0
280
     0
281
     0
  0
CLASS
  1
LAYOUT
  2
AcDbLayout
  3
ObjectDBX Classes
 90
        0
280
     0
281
     0
  0
ENDSEC
  0
SECTION
  2
TABLES
  0
TABLE
  2
VPORT
  5
8
330
0
100
AcDbSymbolTable
 70
     1
  0
VPORT
  5
29
330
8
100
AcDbSymbolTableRecord
100
AcDbViewportTableRecord
  2
*Active
 70
     0
 10
0.0
 20
0.0
 11
1.0
 21
1.0
 12
139.7
 22
107.95
 13
0.0
 23
0.0
 14
10.0
 24
10.0
 15
10.0
 25
10.0
 16
0.0
 26
0.0
 36
1.0
 17
0.0
 27
0.0
 37
0.0
 40
215.9
 41
1.2941176471
 42
50.0
 43
0.0
 44
0.0
 50
0.0
 51
0.0
 71
     0
 72
  2000
 73
     1
 74
     3
 75
     0
 76
     0
 77
     0
 78
     0
281
     0
 65
     1
110
0.0
120
0.0
130
0.0
111
1.0
121
0.0
131
0.0
112
0.0
122
1.0
132
0.0
 79
     0
146
0.0
  0
ENDTAB
  0
TABLE
  2
LTYPE
  5
5
330
0
100
AcDbSymbolTable
 70
     6
  0
LTYPE
  5
14
330
5
100
AcDbSymbolTableRecord
100
AcDbLinetypeTableRecord
  2
ByBlock
 70
     0
  3

 72
    65
 73
     0
 40
0.0
  0
LTYPE
  5
15
330
5
100
AcDbSymbolTableRecord
100
AcDbLinetypeTableRecord
  2
ByLayer
 70
     0
  3

 72
    65
 73
     0
 40
0.0
  0
LTYPE
  5
16
330
5
100
AcDbSymbolTableRecord
100
AcDbLinetypeTableRecord
  2
Continuous
 70
     0
  3
Solid line
 72
    65
 73
     0
 40
0.0
  0
LTYPE
  5
6E
330
5
100
AcDbSymbolTableRecord
100
AcDbLinetypeTableRecord
  2
HIDDEN
 70
     0
  3
Hidden __ __ __ __ __ __ __ __ __ __ __ __ __ __
 72
    65
 73
     2
 40
1.905
 49
1.27
 74
     0
 49
-0.635
 74
     0
  0
LTYPE
  5
6F
330
5
100
AcDbSymbolTableRecord
100
AcDbLinetypeTableRecord
  2
PHANTOM
 70
     0
  3
Phantom ______  __  __  ______  __  __  ______
 72
    65
 73
     6
 40
12.7
 49
6.35
 74
     0
 49
-1.27
 74
     0
 49
1.27
 74
     0
 49
-1.27
 74
     0
 49
1.27
 74
     0
 49
-1.27
 74
     0
  0
LTYPE
  5
70
330
5
100
AcDbSymbolTableRecord
100
AcDbLinetypeTableRecord
  2
CENTER
 70
     0
  3
Center ____ _ ____ _ ____ _ ____ _ ____ _ ____
 72
    65
 73
     4
 40
10.16
 49
6.35
 74
     0
 49
-1.27
 74
     0
 49
1.27
 74
     0
 49
-1.27
 74
     0
  0
LTYPE
  5
71
330
5
100
AcDbSymbolTableRecord
100
AcDbLinetypeTableRecord
  2
CENTERX2
 70
     0
  3
Center (2x) ________  __  ________  __  _____
 72
    65
 73
     4
 40
20.32
 49
12.7
 74
     0
 49
-2.54
 74
     0
 49
2.54
 74
     0
 49
-2.54
 74
     0
  0
LTYPE
  5
72
330
5
100
AcDbSymbolTableRecord
100
AcDbLinetypeTableRecord
  2
DOT2
 70
     0
  3
Dot (.5x) ........................................
 72
    65
 73
     2
 40
0.635
 49
0.0
 74
     0
 49
-0.635
 74
     0
  0
ENDTAB
  0
TABLE
  2
LAYER
  5
2
330
0
100
AcDbSymbolTable
 70
    17
  0
LAYER
  5
10
330
2
100
AcDbSymbolTableRecord
100
AcDbLayerTableRecord
  2
0
 70
     0
 62
     7
  6
Continuous
370
    -3
390
F
  0
LAYER
  5
73
330
2
100
AcDbSymbolTableRecord
100
AcDbLayerTableRecord
  2
FORMAT
 70
     0
 62
     7
  6
Continuous
370
    -3
390
F
  0
LAYER
  5
74
330
2
100
AcDbSymbolTableRecord
100
AcDbLayerTableRecord
  2
YARDIMCI_GEOMETRI
 70
     0
 62
    -6
  6
Continuous
290
     0
370
    -3
390
F
  0
LAYER
  5
75
330
2
100
AcDbSymbolTableRecord
100
AcDbLayerTableRecord
  2
SAYFA_CERCEVESI
 70
     0
 62
     7
  6
Continuous
370
    25
390
F
  0
LAYER
  5
76
330
2
100
AcDbSymbolTableRecord
100
AcDbLayerTableRecord
  2
ANTET
 70
     0
 62
     7
  6
Continuous
370
    -3
390
F
  0
LAYER
  5
77
330
2
100
AcDbSymbolTableRecord
100
AcDbLayerTableRecord
  2
OLCU
 70
     0
 62
   150
  6
Continuous
370
    -3
390
F
  0
LAYER
  5
78
330
2
100
AcDbSymbolTableRecord
100
AcDbLayerTableRecord
  2
METIN
 70
     0
 62
    96
  6
Continuous
370
    -3
390
F
  0
LAYER
  5
79
330
2
100
AcDbSymbolTableRecord
100
AcDbLayerTableRecord
  2
BALON
 70
     0
 62
     5
  6
Continuous
370
    -3
390
F
  0
LAYER
  5
7A
330
2
100
AcDbSymbolTableRecord
100
AcDbLayerTableRecord
  2
VURGU
 70
     0
 62
     7
  6
Continuous
370
    -3
390
F
  0
LAYER
  5
7B
330
2
100
AcDbSymbolTableRecord
100
AcDbLayerTableRecord
  2
SILIK
 70
     0
 62
     7
  6
Continuous
370
    -3
390
F
  0
LAYER
  5
7C
330
2
100
AcDbSymbolTableRecord
100
AcDbLayerTableRecord
  2
MODEL
 70
     0
 62
     7
  6
Continuous
370
    -3
390
F
  0
LAYER
  5
7D
330
2
100
AcDbSymbolTableRecord
100
AcDbLayerTableRecord
  2
DETAYLANDıRMA
 70
     0
 62
   190
  6
Continuous
370
    -3
390
F
  0
LAYER
  5
7E
330
2
100
AcDbSymbolTableRecord
100
AcDbLayerTableRecord
  2
TOLERANS
 70
     0
 62
   230
  6
Continuous
370
    -3
390
F
  0
LAYER
  5
7F
330
2
100
AcDbSymbolTableRecord
100
AcDbLayerTableRecord
  2
MERKEZ_CIZGILERI
 70
     0
 62
    30
  6
Continuous
370
    -3
390
F
  0
LAYER
  5
80
330
2
100
AcDbSymbolTableRecord
100
AcDbLayerTableRecord
  2
KESIT-DETAY_CIZGILERI
 70
     0
 62
     7
  6
Continuous
370
    -3
390
F
  0
LAYER
  5
81
330
2
100
AcDbSymbolTableRecord
100
AcDbLayerTableRecord
  2
\U+041E\U+0421\U+0415\U+0412\U+042B\U+0415
 70
     0
 62
     7
  6
Continuous
370
    -3
390
F
  0
LAYER
  5
82
330
2
100
AcDbSymbolTableRecord
100
AcDbLayerTableRecord
  2
\U+0412\U+041E\U+0414\U+042F\U+041D\U+042B\U+0415_\U+0417\U+041D\U+0410\U+041A\U+0418
 70
     0
 62
    11
  6
Continuous
370
    -3
390
F
  0
ENDTAB
  0
TABLE
  2
STYLE
  5
3
330
0
100
AcDbSymbolTable
 70
     1
  0
STYLE
  5
11
330
3
100
AcDbSymbolTableRecord
100
AcDbTextStyleTableRecord
  2
Standard
 70
     0
 40
0.0
 41
1.0
 50
0.0
 71
     0
 42
3.5
  3
txt
  4

  0
ENDTAB
  0
TABLE
  2
VIEW
  5
6
330
0
100
AcDbSymbolTable
 70
     0
  0
ENDTAB
  0
TABLE
  2
UCS
  5
7
330
0
100
AcDbSymbolTable
 70
     0
  0
ENDTAB
  0
TABLE
  2
APPID
  5
9
330
0
100
AcDbSymbolTable
 70
     1
  0
APPID
  5
12
330
9
100
AcDbSymbolTableRecord
100
AcDbRegAppTableRecord
  2
ACAD
 70
     0
  0
ENDTAB
  0
TABLE
  2
DIMSTYLE
  5
A
330
0
100
AcDbSymbolTable
 70
     1
100
AcDbDimStyleTable
  0
DIMSTYLE
105
27
330
A
100
AcDbSymbolTableRecord
100
AcDbDimStyleTableRecord
  2
ISO-25
 70
     0
 41
2.5
 42
0.625
 43
3.75
 44
1.25
 73
     0
 74
     0
 77
     1
 78
     8
140
2.5
141
2.5
143
0.0393700787
147
0.625
171
     3
172
     1
178
     0
271
     2
272
     2
274
     3
278
    44
283
     0
284
     8
340
11
  0
ENDTAB
  0
TABLE
  2
BLOCK_RECORD
  5
1
330
0
100
AcDbSymbolTable
 70
     2
  0
BLOCK_RECORD
  5
1F
330
1
100
AcDbSymbolTableRecord
100
AcDbBlockTableRecord
  2
*Model_Space
340
22
  0
BLOCK_RECORD
  5
1B
330
1
100
AcDbSymbolTableRecord
100
AcDbBlockTableRecord
  2
*Paper_Space
340
1E
  0
BLOCK_RECORD
  5
23
330
1
100
AcDbSymbolTableRecord
100
AcDbBlockTableRecord
  2
*Paper_Space0
340
26
  0
BLOCK_RECORD
  5
88
330
1
100
AcDbSymbolTableRecord
100
AcDbBlockTableRecord
  2
SW_CENTERMARKSYMBOL_0
340
0
102
{BLKREFS
331
93
102
}
  0
ENDTAB
  0
ENDSEC
  0
SECTION
  2
BLOCKS
  0
BLOCK
  5
20
330
1F
100
AcDbEntity
  8
0
100
AcDbBlockBegin
  2
*Model_Space
 70
     0
 10
0.0
 20
0.0
 30
0.0
  3
*Model_Space
  1

  0
ENDBLK
  5
21
330
1F
100
AcDbEntity
  8
0
100
AcDbBlockEnd
  0
BLOCK
  5
1C
330
1B
100
AcDbEntity
 67
     1
  8
0
100
AcDbBlockBegin
  2
*Paper_Space
 70
     0
 10
0.0
 20
0.0
 30
0.0
  3
*Paper_Space
  1

  0
ENDBLK
  5
1D
330
1B
100
AcDbEntity
 67
     1
  8
0
100
AcDbBlockEnd
  0
BLOCK
  5
24
330
23
100
AcDbEntity
  8
0
100
AcDbBlockBegin
  2
*Paper_Space0
 70
     0
 10
0.0
 20
0.0
 30
0.0
  3
*Paper_Space0
  1

  0
ENDBLK
  5
25
330
23
100
AcDbEntity
  8
0
100
AcDbBlockEnd
  0
BLOCK
  5
89
330
88
100
AcDbEntity
  8
0
100
AcDbBlockBegin
  2
SW_CENTERMARKSYMBOL_0
 70
     0
 10
0.0
 20
0.0
 30
0.0
  3
SW_CENTERMARKSYMBOL_0
  1

  0
LINE
  5
8B
330
88
100
AcDbEntity
  8
FORMAT
 62
     0
100
AcDbLine
 10
0.0
 20
0.0
 30
0.0
 11
0.0
 21
2.5
 31
0.0
  0
LINE
  5
8C
330
88
100
AcDbEntity
  8
FORMAT
 62
     0
100
AcDbLine
 10
0.0
 20
0.0
 30
0.0
 11
-2.5
 21
0.0
 31
0.0
  0
LINE
  5
8D
330
88
100
AcDbEntity
  8
FORMAT
 62
     0
100
AcDbLine
 10
0.0
 20
0.0
 30
0.0
 11
0.0
 21
-2.5
 31
0.0
  0
LINE
  5
8E
330
88
100
AcDbEntity
  8
FORMAT
 62
     0
100
AcDbLine
 10
0.0
 20
0.0
 30
0.0
 11
2.5
 21
0.0
 31
0.0
  0
LINE
  5
8F
330
88
100
AcDbEntity
  8
FORMAT
 62
     0
100
AcDbLine
 10
0.0
 20
5.0
 30
0.0
 11
0.0
 21
202.5
 31
0.0
  0
LINE
  5
90
330
88
100
AcDbEntity
  8
FORMAT
 62
     0
100
AcDbLine
 10
-5.0
 20
0.0
 30
0.0
 11
-202.5
 21
0.0
 31
0.0
  0
LINE
  5
91
330
88
100
AcDbEntity
  8
FORMAT
 62
     0
100
AcDbLine
 10
0.0
 20
-5.0
 30
0.0
 11
0.0
 21
-202.5
 31
0.0
  0
LINE
  5
92
330
88
100
AcDbEntity
  8
FORMAT
 62
     0
100
AcDbLine
 10
5.0
 20
0.0
 30
0.0
 11
202.5
 21
0.0
 31
0.0
  0
ENDBLK
  5
8A
330
88
100
AcDbEntity
  8
0
100
AcDbBlockEnd
  0
ENDSEC
  0
SECTION
  2
ENTITIES
  0
CIRCLE
  5
83
330
1F
100
AcDbEntity
  8
0
  6
Continuous
 62
     7
370
    25
100
AcDbCircle
 10
130.6810329512
 20
112.0420513222
 30
0.0
 40
200.0
  0
CIRCLE
  5
84
330
1F
100
AcDbEntity
  8
0
  6
Continuous
 62
     7
370
    25
100
AcDbCircle
 10
130.6810329512
 20
112.0420513222
 30
0.0
 40
176.3
  0
CIRCLE
  5
85
330
1F
100
AcDbEntity
  8
0
  6
Continuous
 62
     7
370
    25
100
AcDbCircle
 10
130.6810329512
 20
112.0420513222
 30
0.0
 40
174.4234752377721
  0
CIRCLE
  5
86
330
1F
100
AcDbEntity
  8
0
  6
Continuous
 62
     7
370
    25
100
AcDbCircle
 10
130.6810329512
 20
112.0420513222
 30
0.0
 40
158.2765247622279
  0
CIRCLE
  5
87
330
1F
100
AcDbEntity
  8
0
  6
Continuous
 62
     7
370
    25
100
AcDbCircle
 10
130.6810329512
 20
112.0420513222
 30
0.0
 40
156.4000000000001
  0
INSERT
  5
93
330
1F
100
AcDbEntity
  8
FORMAT
 62
     7
100
AcDbBlockReference
  2
SW_CENTERMARKSYMBOL_0
 10
130.6810329512
 20
112.0420513222
 30
0.0
  0
LINE
  5
94
330
1F
100
AcDbEntity
  8
0
  6
Continuous
 62
     7
370
    25
100
AcDbLine
 10
-503.2672968211
 20
312.0420513222
 30
0.0
 11
-691.3060471262
 21
312.0420513222
 31
0.0
  0
LINE
  5
95
330
1F
100
AcDbEntity
  8
0
  6
Continuous
 62
     7
370
    25
100
AcDbLine
 10
-691.3060471262
 20
-87.9579486778
 30
0.0
 11
-503.2672968211
 21
-87.9579486778
 31
0.0
  0
ARC
  5
96
330
1F
100
AcDbEntity
  8
0
  6
Continuous
 62
     7
370
    25
100
AcDbCircle
 10
-503.2672968211
 20
310.0420513222
 30
0.0
 40
1.999999999999943
100
AcDbArc
 50
38.6598082541
 51
90.0
  0
ARC
  5
97
330
1F
100
AcDbEntity
  8
0
  6
Continuous
 62
     7
370
    25
100
AcDbCircle
 10
-503.2672968211
 20
-85.9579486778
 30
0.0
 40
1.999999999999972
100
AcDbArc
 50
270.0
 51
321.3401917459
  0
LINE
  5
98
330
1F
100
AcDbEntity
  8
0
  6
Continuous
 62
     7
370
    25
100
AcDbLine
 10
-501.7055592022
 20
-87.2073387729
 30
0.0
 11
-484.9065350501
 21
-66.2085585827
 31
0.0
  0
LINE
  5
99
330
1F
100
AcDbEntity
  8
0
  6
Continuous
 62
     7
370
    25
100
AcDbLine
 10
-484.9065350501
 20
290.2926612271
 30
0.0
 11
-501.7055592022
 21
311.2914414173
 31
0.0
  0
ARC
  5
9A
330
1F
100
AcDbEntity
  8
0
  6
Continuous
 62
     7
370
    25
100
AcDbCircle
 10
-483.3447974312
 20
291.5420513222
 30
0.0
 40
2.000000000000071
100
AcDbArc
 50
218.6598082541
 51
270.0
  0
ARC
  5
9B
330
1F
100
AcDbEntity
  8
0
  6
Continuous
 62
     7
370
    25
100
AcDbCircle
 10
-483.3447974312
 20
-67.4579486778
 30
0.0
 40
2.00000000000008
100
AcDbArc
 50
90.0
 51
141.3401917459
  0
LINE
  5
9C
330
1F
100
AcDbEntity
  8
0
  6
Continuous
 62
     7
370
    25
100
AcDbLine
 10
-311.3060471262
 20
289.5420513222
 30
0.0
 11
-483.3447974312
 21
289.5420513222
 31
0.0
  0
LINE
  5
9D
330
1F
100
AcDbEntity
  8
0
  6
Continuous
 62
     7
370
    25
100
AcDbLine
 10
-483.3447974312
 20
-65.4579486778
 30
0.0
 11
-311.3060471262
 21
-65.4579486778
 31
0.0
  0
LINE
  5
9E
330
1F
100
AcDbEntity
  8
0
  6
Continuous
 62
     7
370
    25
100
AcDbLine
 10
-691.3060471262
 20
312.0420513222
 30
0.0
 11
-691.3060471262
 21
-87.9579486778
 31
0.0
  0
LINE
  5
9F
330
1F
100
AcDbEntity
  8
0
  6
Continuous
 62
     7
370
    25
100
AcDbLine
 10
-311.3060471262
 20
289.5420513222
 30
0.0
 11
-311.3060471262
 21
-65.4579486778
 31
0.0
  0
LINE
  5
A0
330
1F
100
AcDbEntity
  8
0
  6
Continuous
 62
     1
370
    25
100
AcDbLine
 10
-503.2672968211
 20
312.0420513222
 30
0.0
 11
-503.2672968211
 21
-87.9579486778
 31
0.0
  0
LINE
  5
A1
330
1F
100
AcDbEntity
  8
0
  6
Continuous
 62
     1
370
    25
100
AcDbLine
 10
-501.7055592022
 20
311.2914414173
 30
0.0
 11
-501.7055592022
 21
-87.2073387729
 31
0.0
  0
LINE
  5
A2
330
1F
100
AcDbEntity
  8
0
  6
Continuous
 62
     1
370
    25
100
AcDbLine
 10
-484.9065350501
 20
290.2926612271
 30
0.0
 11
-484.9065350501
 21
-66.2085585827
 31
0.0
  0
LINE
  5
A3
330
1F
100
AcDbEntity
  8
0
  6
Continuous
 62
     1
370
    25
100
AcDbLine
 10
-483.3447974312
 20
289.5420513222
 30
0.0
 11
-483.3447974312
 21
-65.4579486778
 31
0.0
  0
LINE
  5
A4
330
1F
100
AcDbEntity
  8
0
  6
Continuous
 62
     7
370
    25
100
AcDbLine
 10
330.6810329512
 20
671.3334498926
 30
0.0
 11
330.6810329512
 21
859.3722001977
 31
0.0
  0
LINE
  5
A5
330
1F
100
AcDbEntity
  8
0
  6
Continuous
 62
     7
370
    25
100
AcDbLine
 10
-69.3189670488
 20
859.3722001977
 30
0.0
 11
-69.3189670488
 21
671.3334498926
 31
0.0
  0
ARC
  5
A6
330
1F
100
AcDbEntity
  8
0
  6
Continuous
 62
     7
370
    25
100
AcDbCircle
 10
328.6810329512
 20
671.3334498926
 30
0.0
 40
1.999999999999947
100
AcDbArc
 50
308.6598082541
 51
0.0
  0
ARC
  5
A7
330
1F
100
AcDbEntity
  8
0
  6
Continuous
 62
     7
370
    25
100
AcDbCircle
 10
-67.3189670488
 20
671.3334498926
 30
0.0
 40
1.999999999999972
100
AcDbArc
 50
180.0
 51
231.3401917459
  0
LINE
  5
A8
330
1F
100
AcDbEntity
  8
0
  6
Continuous
 62
     7
370
    25
100
AcDbLine
 10
-68.5683571439
 20
669.7717122738
 30
0.0
 11
-47.5695769537
 21
652.9726881216
 31
0.0
  0
LINE
  5
A9
330
1F
100
AcDbEntity
  8
0
  6
Continuous
 62
     7
370
    25
100
AcDbLine
 10
308.9316428561
 20
652.9726881216
 30
0.0
 11
329.9304230463
 21
669.7717122738
 31
0.0
  0
ARC
  5
AA
330
1F
100
AcDbEntity
  8
0
  6
Continuous
 62
     7
370
    25
100
AcDbCircle
 10
310.1810329512
 20
651.4109505027
 30
0.0
 40
2.000000000000071
100
AcDbArc
 50
128.6598082541
 51
180.0
  0
ARC
  5
AB
330
1F
100
AcDbEntity
  8
0
  6
Continuous
 62
     7
370
    25
100
AcDbCircle
 10
-48.8189670488
 20
651.4109505027
 30
0.0
 40
2.000000000000075
100
AcDbArc
 50
0.0
 51
51.3401917459
  0
LINE
  5
AC
330
1F
100
AcDbEntity
  8
0
  6
Continuous
 62
     7
370
    25
100
AcDbLine
 10
308.1810329512
 20
479.3722001977
 30
0.0
 11
308.1810329512
 21
651.4109505027
 31
0.0
  0
LINE
  5
AD
330
1F
100
AcDbEntity
  8
0
  6
Continuous
 62
     7
370
    25
100
AcDbLine
 10
-46.8189670488
 20
651.4109505027
 30
0.0
 11
-46.8189670488
 21
479.3722001977
 31
0.0
  0
LINE
  5
AE
330
1F
100
AcDbEntity
  8
0
  6
Continuous
 62
     7
370
    25
100
AcDbLine
 10
330.6810329512
 20
859.3722001977
 30
0.0
 11
-69.3189670488
 21
859.3722001977
 31
0.0
  0
LINE
  5
AF
330
1F
100
AcDbEntity
  8
0
  6
Continuous
 62
     7
370
    25
100
AcDbLine
 10
308.1810329512
 20
479.3722001977
 30
0.0
 11
-46.8189670488
 21
479.3722001977
 31
0.0
  0
LINE
  5
B0
330
1F
100
AcDbEntity
  8
0
  6
Continuous
 62
     1
370
    25
100
AcDbLine
 10
330.6810329512
 20
671.3334498926
 30
0.0
 11
-69.3189670488
 21
671.3334498926
 31
0.0
  0
LINE
  5
B1
330
1F
100
AcDbEntity
  8
0
  6
Continuous
 62
     1
370
    25
100
AcDbLine
 10
329.9304230463
 20
669.7717122738
 30
0.0
 11
-68.5683571439
 21
669.7717122738
 31
0.0
  0
LINE
  5
B2
330
1F
100
AcDbEntity
  8
0
  6
Continuous
 62
     1
370
    25
100
AcDbLine
 10
308.9316428561
 20
652.9726881216
 30
0.0
 11
-47.5695769537
 21
652.9726881216
 31
0.0
  0
LINE
  5
B3
330
1F
100
AcDbEntity
  8
0
  6
Continuous
 62
     1
370
    25
100
AcDbLine
 10
308.1810329512
 20
651.4109505027
 30
0.0
 11
-46.8189670488
 21
651.4109505027
 31
0.0
  0
LINE
  5
B4
330
1F
100
AcDbEntity
  8
0
  6
Continuous
 62
     7
370
    25
100
AcDbLine
 10
822.23928859
 20
-87.9579486778
 30
0.0
 11
1010.278038895
 21
-87.9579486778
 31
0.0
  0
LINE
  5
B5
330
1F
100
AcDbEntity
  8
0
  6
Continuous
 62
     7
370
    25
100
AcDbLine
 10
1010.278038895
 20
312.0420513222
 30
0.0
 11
822.23928859
 21
312.0420513222
 31
0.0
  0
ARC
  5
B6
330
1F
100
AcDbEntity
  8
0
  6
Continuous
 62
     7
370
    25
100
AcDbCircle
 10
822.23928859
 20
-85.9579486778
 30
0.0
 40
1.999999999999972
100
AcDbArc
 50
218.6598082541
 51
270.0
  0
ARC
  5
B7
330
1F
100
AcDbEntity
  8
0
  6
Continuous
 62
     7
370
    25
100
AcDbCircle
 10
822.23928859
 20
310.0420513222
 30
0.0
 40
1.999999999999943
100
AcDbArc
 50
90.0
 51
141.3401917459
  0
LINE
  5
B8
330
1F
100
AcDbEntity
  8
0
  6
Continuous
 62
     7
370
    25
100
AcDbLine
 10
820.6775509711
 20
311.2914414173
 30
0.0
 11
803.8785268189
 21
290.2926612271
 31
0.0
  0
LINE
  5
B9
330
1F
100
AcDbEntity
  8
0
  6
Continuous
 62
     7
370
    25
100
AcDbLine
 10
803.8785268189
 20
-66.2085585827
 30
0.0
 11
820.6775509711
 21
-87.2073387729
 31
0.0
  0
ARC
  5
BA
330
1F
100
AcDbEntity
  8
0
  6
Continuous
 62
     7
370
    25
100
AcDbCircle
 10
802.3167892001
 20
-67.4579486778
 30
0.0
 40
2.00000000000008
100
AcDbArc
 50
38.6598082541
 51
90.0
  0
ARC
  5
BB
330
1F
100
AcDbEntity
  8
0
  6
Continuous
 62
     7
370
    25
100
AcDbCircle
 10
802.3167892001
 20
291.5420513222
 30
0.0
 40
2.000000000000071
100
AcDbArc
 50
270.0
 51
321.3401917459
  0
LINE
  5
BC
330
1F
100
AcDbEntity
  8
0
  6
Continuous
 62
     7
370
    25
100
AcDbLine
 10
630.278038895
 20
-65.4579486778
 30
0.0
 11
802.3167892001
 21
-65.4579486778
 31
0.0
  0
LINE
  5
BD
330
1F
100
AcDbEntity
  8
0
  6
Continuous
 62
     7
370
    25
100
AcDbLine
 10
802.3167892001
 20
289.5420513222
 30
0.0
 11
630.278038895
 21
289.5420513222
 31
0.0
  0
LINE
  5
BE
330
1F
100
AcDbEntity
  8
0
  6
Continuous
 62
     7
370
    25
100
AcDbLine
 10
1010.278038895
 20
112.0420513222
 30
0.0
 11
1010.278038895
 21
312.0420513222
 31
0.0
  0
LINE
  5
BF
330
1F
100
AcDbEntity
  8
0
  6
Continuous
 62
     7
370
    25
100
AcDbLine
 10
1010.278038895
 20
-87.9579486778
 30
0.0
 11
1010.278038895
 21
112.0420513222
 31
0.0
  0
LINE
  5
C0
330
1F
100
AcDbEntity
  8
0
  6
Continuous
 62
     7
370
    25
100
AcDbLine
 10
630.278038895
 20
112.0420513222
 30
0.0
 11
630.278038895
 21
289.5420513222
 31
0.0
  0
LINE
  5
C1
330
1F
100
AcDbEntity
  8
0
  6
Continuous
 62
     7
370
    25
100
AcDbLine
 10
630.278038895
 20
-65.4579486778
 30
0.0
 11
630.278038895
 21
112.0420513222
 31
0.0
  0
LINE
  5
C2
330
1F
100
AcDbEntity
  8
0
  6
Continuous
 62
     1
370
    25
100
AcDbLine
 10
822.23928859
 20
112.0420513222
 30
0.0
 11
822.23928859
 21
312.0420513222
 31
0.0
  0
LINE
  5
C3
330
1F
100
AcDbEntity
  8
0
  6
Continuous
 62
     1
370
    25
100
AcDbLine
 10
822.23928859
 20
-87.9579486778
 30
0.0
 11
822.23928859
 21
112.0420513222
 31
0.0
  0
LINE
  5
C4
330
1F
100
AcDbEntity
  8
0
  6
Continuous
 62
     1
370
    25
100
AcDbLine
 10
820.6775509711
 20
112.0420513222
 30
0.0
 11
820.6775509711
 21
311.2914414173
 31
0.0
  0
LINE
  5
C5
330
1F
100
AcDbEntity
  8
0
  6
Continuous
 62
     1
370
    25
100
AcDbLine
 10
820.6775509711
 20
-87.2073387729
 30
0.0
 11
820.6775509711
 21
112.0420513222
 31
0.0
  0
LINE
  5
C6
330
1F
100
AcDbEntity
  8
0
  6
Continuous
 62
     1
370
    25
100
AcDbLine
 10
803.8785268189
 20
112.0420513222
 30
0.0
 11
803.8785268189
 21
290.2926612271
 31
0.0
  0
LINE
  5
C7
330
1F
100
AcDbEntity
  8
0
  6
Continuous
 62
     1
370
    25
100
AcDbLine
 10
803.8785268189
 20
-66.2085585827
 30
0.0
 11
803.8785268189
 21
112.0420513222
 31
0.0
  0
LINE
  5
C8
330
1F
100
AcDbEntity
  8
0
  6
Continuous
 62
     1
370
    25
100
AcDbLine
 10
802.3167892001
 20
112.0420513222
 30
0.0
 11
802.3167892001
 21
289.5420513222
 31
0.0
  0
LINE
  5
C9
330
1F
100
AcDbEntity
  8
0
  6
Continuous
 62
     1
370
    25
100
AcDbLine
 10
802.3167892001
 20
-65.4579486778
 30
0.0
 11
802.3167892001
 21
112.0420513222
 31
0.0
  0
LINE
  5
CA
330
1F
100
AcDbEntity
  8
0
  6
Continuous
 62
     7
370
    25
100
AcDbLine
 10
-69.3189670488
 20
-479.4863194722
 30
0.0
 11
-69.3189670488
 21
-667.5250697773
 31
0.0
  0
LINE
  5
CB
330
1F
100
AcDbEntity
  8
0
  6
Continuous
 62
     7
370
    25
100
AcDbLine
 10
330.6810329512
 20
-667.5250697773
 30
0.0
 11
330.6810329512
 21
-479.4863194722
 31
0.0
  0
ARC
  5
CC
330
1F
100
AcDbEntity
  8
0
  6
Continuous
 62
     7
370
    25
100
AcDbCircle
 10
-67.3189670488
 20
-479.4863194722
 30
0.0
 40
1.999999999999972
100
AcDbArc
 50
128.6598082541
 51
180.0
  0
ARC
  5
CD
330
1F
100
AcDbEntity
  8
0
  6
Continuous
 62
     7
370
    25
100
AcDbCircle
 10
328.6810329512
 20
-479.4863194722
 30
0.0
 40
1.999999999999947
100
AcDbArc
 50
0.0
 51
51.3401917459
  0
LINE
  5
CE
330
1F
100
AcDbEntity
  8
0
  6
Continuous
 62
     7
370
    25
100
AcDbLine
 10
329.9304230463
 20
-477.9245818534
 30
0.0
 11
308.9316428561
 21
-461.1255577012
 31
0.0
  0
LINE
  5
CF
330
1F
100
AcDbEntity
  8
0
  6
Continuous
 62
     7
370
    25
100
AcDbLine
 10
-47.5695769537
 20
-461.1255577012
 30
0.0
 11
-68.5683571439
 21
-477.9245818534
 31
0.0
  0
ARC
  5
D0
330
1F
100
AcDbEntity
  8
0
  6
Continuous
 62
     7
370
    25
100
AcDbCircle
 10
-48.8189670488
 20
-459.5638200823
 30
0.0
 40
2.000000000000075
100
AcDbArc
 50
308.6598082541
 51
0.0
  0
ARC
  5
D1
330
1F
100
AcDbEntity
  8
0
  6
Continuous
 62
     7
370
    25
100
AcDbCircle
 10
310.1810329512
 20
-459.5638200823
 30
0.0
 40
2.000000000000071
100
AcDbArc
 50
180.0
 51
231.3401917459
  0
LINE
  5
D2
330
1F
100
AcDbEntity
  8
0
  6
Continuous
 62
     7
370
    25
100
AcDbLine
 10
-46.8189670488
 20
-287.5250697773
 30
0.0
 11
-46.8189670488
 21
-459.5638200823
 31
0.0
  0
LINE
  5
D3
330
1F
100
AcDbEntity
  8
0
  6
Continuous
 62
     7
370
    25
100
AcDbLine
 10
308.1810329512
 20
-459.5638200823
 30
0.0
 11
308.1810329512
 21
-287.5250697773
 31
0.0
  0
LINE
  5
D4
330
1F
100
AcDbEntity
  8
0
  6
Continuous
 62
     7
370
    25
100
AcDbLine
 10
-69.3189670488
 20
-667.5250697773
 30
0.0
 11
330.6810329512
 21
-667.5250697773
 31
0.0
  0
LINE
  5
D5
330
1F
100
AcDbEntity
  8
0
  6
Continuous
 62
     7
370
    25
100
AcDbLine
 10
-46.8189670488
 20
-287.5250697773
 30
0.0
 11
308.1810329512
 21
-287.5250697773
 31
0.0
  0
LINE
  5
D6
330
1F
100
AcDbEntity
  8
0
  6
Continuous
 62
     1
370
    25
100
AcDbLine
 10
-69.3189670488
 20
-479.4863194722
 30
0.0
 11
330.6810329512
 21
-479.4863194722
 31
0.0
  0
LINE
  5
D7
330
1F
100
AcDbEntity
  8
0
  6
Continuous
 62
     1
370
    25
100
AcDbLine
 10
-68.5683571439
 20
-477.9245818534
 30
0.0
 11
329.9304230463
 21
-477.9245818534
 31
0.0
  0
LINE
  5
D8
330
1F
100
AcDbEntity
  8
0
  6
Continuous
 62
     1
370
    25
100
AcDbLine
 10
-47.5695769537
 20
-461.1255577012
 30
0.0
 11
308.9316428561
 21
-461.1255577012
 31
0.0
  0
LINE
  5
D9
330
1F
100
AcDbEntity
  8
0
  6
Continuous
 62
     1
370
    25
100
AcDbLine
 10
-46.8189670488
 20
-459.5638200823
 30
0.0
 11
308.1810329512
 21
-459.5638200823
 31
0.0
  0
LINE
  5
DA
330
1F
100
AcDbEntity
  8
0
  6
Continuous
 62
     7
370
    25
100
AcDbLine
 10
888.2176135592
 20
-279.9081928685
 30
0.0
 11
755.2541380927
 21
-203.1500123255
 31
0.0
  0
LINE
  5
DB
330
1F
100
AcDbEntity
  8
0
  6
Continuous
 62
     7
370
    25
100
AcDbLine
 10
555.2703915655
 20
-549.5695572777
 30
0.0
 11
688.233867032
 21
-626.3277378207
 31
0.0
  0
SPLINE
  5
DC
330
1F
100
AcDbEntity
  8
0
  6
Continuous
 62
     7
370
    25
100
AcDbSpline
210
0.0
220
0.0
230
1.0
 70
     8
 71
     3
 72
    22
 73
    18
 74
     0
 42
0.00000001
 43
0.00000001
 40
0.0
 40
0.0
 40
0.0
 40
0.0
 40
0.0307042632758614
 40
0.1043525737596346
 40
0.1779921267678697
 40
0.2516171520042481
 40
0.3252207690189047
 40
0.3987950113350714
 40
0.4723309615356751
 40
0.5458190364894855
 40
0.6192494573407863
 40
0.6926129230616505
 40
0.7659014763028069
 40
0.8391095062715972
 40
0.9122347812952116
 40
0.9852793561140994
 40
0.9999999999999999
 40
0.9999999999999999
 40
0.9999999999999999
 40
0.9999999999999999
 10
929.0815689031822
 20
-352.3989324905958
 30
0.0
 10
928.9893202435751
 20
-351.5505560815266
 30
0.0
 10
928.6758007505524
 20
-348.6672346024236
 30
0.0
 10
927.9049913048307
 20
-343.9174371857169
 30
0.0
 10
926.7761401099275
 20
-338.1576773495058
 30
0.0
 10
925.4124632207296
 20
-332.5885573822436
 30
0.0
 10
923.8332093576662
 20
-327.2071069158406
 30
0.0
 10
922.0361799646998
 20
-322.0254454738819
 30
0.0
 10
920.025454993941
 20
-317.0513256595407
 30
0.0
 10
917.8040240120527
 20
-312.2932429586568
 30
0.0
 10
915.3756160301231
 20
-307.7592403601078
 30
0.0
 10
912.7447744024391
 20
-303.4563338216544
 30
0.0
 10
909.9146993249562
 20
-299.3937148435085
 30
0.0
 10
906.8956748574301
 20
-295.570231987868
 30
0.0
 10
903.6733554328791
 20
-292.0209067478351
 30
0.0
 10
901.2162849577259
 20
-289.5412014244165
 30
0.0
 10
899.7807471104361
 20
-288.3271576589486
 30
0.0
 10
899.5399678843766
 20
-288.1235290894869
 30
0.0
  0
SPLINE
  5
DD
330
1F
100
AcDbEntity
  8
0
  6
Continuous
 62
     7
370
    25
100
AcDbSpline
210
0.0
220
0.0
230
1.0
 70
     8
 71
     3
 72
    23
 73
    19
 74
     0
 42
0.00000001
 43
0.00000001
 40
0.0
 40
0.0
 40
0.0
 40
0.0
 40
0.0383351031567734
 40
0.1059429461958318
 40
0.173610963804528
 40
0.2413482145317068
 40
0.3091591864242426
 40
0.3770441371915689
 40
0.4449997886521857
 40
0.5130202148946761
 40
0.5810977718102033
 40
0.6492239498342912
 40
0.7173900769054355
 40
0.7855878418386827
 40
0.8538096415544157
 40
0.9220487762348072
 40
0.9902995256977423
 40
1.0
 40
1.0
 40
1.0
 40
1.0
 10
701.7538706745495
 20
-632.2527046328395
 30
0.0
 10
702.5990869908492
 20
-632.5282921291038
 30
0.0
 10
704.9349280176848
 20
-633.2899061299732
 30
0.0
 10
708.9079894919631
 20
-634.2225696735429
 30
0.0
 10
713.6522592422236
 20
-635.0755113841279
 30
0.0
 10
718.5213425641862
 20
-635.6273127539481
 30
0.0
 10
723.4998333489418
 20
-635.8936511703428
 30
0.0
 10
728.5820686258766
 20
-635.8692504133375
 30
0.0
 10
733.7593776242234
 20
-635.5550632789741
 30
0.0
 10
739.0235481631729
 20
-634.9510088768941
 30
0.0
 10
744.3659523819998
 20
-634.0580200867491
 30
0.0
 10
749.7778574217065
 20
-632.8772548819824
 30
0.0
 10
755.250362858075
 20
-631.4112394745745
 30
0.0
 10
760.7746291020062
 20
-629.660044721246
 30
0.0
 10
766.3412771284234
 20
-627.6353545007742
 30
0.0
 10
771.9427655147248
 20
-625.3078697648281
 30
0.0
 10
775.9567983156662
 20
-623.5197794903062
 30
0.0
 10
778.1039277154366
 20
-622.4298201606047
 30
0.0
 10
778.3711226683835
 20
-622.2941824892819
 30
0.0
  0
LINE
  5
DE
330
1F
100
AcDbEntity
  8
0
  6
Continuous
 62
     7
370
    25
100
AcDbLine
 10
830.8231153156
 20
-585.2817267349
 30
0.0
 11
838.3288891814
 21
-578.2776792588
 31
0.0
  0
LINE
  5
DF
330
1F
100
AcDbEntity
  8
0
  6
Continuous
 62
     7
370
    25
100
AcDbLine
 10
921.6670052457
 20
-433.9161861599
 30
0.0
 11
923.9788627565
 21
-423.9137545943
 31
0.0
  0
LINE
  5
E0
330
1F
100
AcDbEntity
  8
0
  6
Continuous
 62
     7
370
    25
100
AcDbLine
 10
1012.7056292014
 20
-377.7536529753
 30
0.0
 11
923.4446022977
 21
-326.2243589757
 31
0.0
  0
LINE
  5
E1
330
1F
100
AcDbEntity
  8
0
  6
Continuous
 62
     7
370
    25
100
AcDbLine
 10
745.950613621
 20
-633.6668480334
 30
0.0
 11
835.2200541585
 21
-685.2009991205
 31
0.0
  0
LWPOLYLINE
  5
E2
330
1F
100
AcDbEntity
  8
0
  6
Continuous
 62
     7
370
    25
100
AcDbPolyline
 90
      151
 70
   128
 43
0.0
 10
513.8409085918
 20
-458.0005959839
 10
513.9649591488
 20
-451.0903470627
 10
514.3368931932
 20
-444.0489953418
 10
514.9560582262
 20
-436.8888937446
 10
515.8213680219
 20
-429.6226035224
 10
516.931304533
 20
-422.2628722173
 10
518.2839205536
 20
-414.8226112989
 10
519.8768431357
 20
-407.3148735131
 10
521.7072777516
 20
-399.7528299831
 10
523.7720131972
 20
-392.1497471029
 10
526.0674272248
 20
-384.5189632632
 10
528.5894928983
 20
-376.8738654521
 10
531.3337856574
 20
-369.2278657688
 10
534.2954910802
 20
-361.594377895
 10
537.469413329
 20
-353.9867935621
 10
540.8499842655
 20
-346.4184590583
 10
544.4312732197
 20
-338.902651814
 10
548.2069973939
 20
-331.452557109
 10
552.1705328847
 20
-324.0812449409
 10
556.3149263041
 20
-316.8016470961
 10
560.6329069779
 20
-309.6265344628
 10
565.1168997006
 20
-302.5684946267
 10
569.7590380254
 20
-295.6399097881
 10
574.5511780641
 20
-288.852935039
 10
579.4849127748
 20
-282.2194770394
 10
584.5515867104
 20
-275.7511731288
 10
589.742311203
 20
-269.45937091
 10
595.0479799582
 20
-263.3551083422
 10
600.4592850299
 20
-257.4490943762
 10
605.9667331504
 20
-251.7516901673
 10
611.5606623842
 20
-246.2728908985
 10
617.2312590786
 20
-241.0223082454
 10
622.96857508
 20
-236.0091535142
 10
628.7625451868
 20
-231.2422214818
 10
634.6030048065
 20
-226.7298749666
 10
640.4797077884
 20
-222.480030158
 10
646.3823443984
 20
-218.5001427276
 10
652.3005594063
 20
-214.7971947505
 10
658.2239702519
 20
-211.3776824557
 10
664.1421852597
 20
-208.2476048298
 10
670.0448218698
 20
-205.4124530923
 10
675.9215248516
 20
-202.877201063
 10
681.7619844713
 20
-200.6462964354
 10
687.5559545781
 20
-198.7236529742
 10
693.2932705796
 20
-197.1126436494
 10
698.9638672739
 20
-195.8160947187
 10
704.5577965077
 20
-194.8362807696
 10
710.0652446282
 20
-194.1749207287
 10
715.4765497
 20
-193.8331748462
 10
720.7822184551
 20
-193.8116426606
 10
725.9729429477
 20
-194.1103619465
 10
731.0396168833
 20
-194.7288086489
 10
735.973351594
 20
-195.665897802
 10
740.7654916328
 20
-196.9199854332
 10
745.4076299575
 20
-198.4888714465
 10
749.8916226802
 20
-200.3698034828
 10
754.209603354
 20
-202.5594817481
 10
758.3539967735
 20
-205.0540648027
 10
762.3175322643
 20
-207.8491763002
 10
766.0932564384
 20
-210.9399126654
 10
769.6745453926
 20
-214.3208516963
 10
773.0551163291
 20
-217.9860620771
 10
776.2290385779
 20
-221.9291137833
 10
779.1907440007
 20
-226.1430893624
 10
781.9350367598
 20
-230.6205960692
 10
784.4571024333
 20
-235.3537788356
 10
786.7525164609
 20
-240.3343340506
 10
788.8172519065
 20
-245.553524128
 10
790.6476865225
 20
-251.0021928349
 10
792.2406091045
 20
-256.6707813549
 10
793.5932251251
 20
-262.5493450575
 10
794.7031616362
 20
-268.6275709445
 10
795.5684714319
 20
-274.8947957422
 10
796.1876364649
 20
-281.3400246088
 10
796.5595705093
 20
-287.9519504227
 10
796.6836210664
 20
-294.7189736193
 10
796.5595705093
 20
-301.6292225404
 10
796.1876364649
 20
-308.6705742614
 10
795.5684714319
 20
-315.8306758586
 10
794.7031616362
 20
-323.0969660808
 10
793.5932251251
 20
-330.4566973859
 10
792.2406091045
 20
-337.8969583042
 10
790.6476865225
 20
-345.40469609
 10
788.8172519065
 20
-352.96673962
 10
786.7525164609
 20
-360.5698225003
 10
784.4571024333
 20
-368.2006063399
 10
781.9350367598
 20
-375.8457041511
 10
779.1907440007
 20
-383.4917038344
 10
776.2290385779
 20
-391.1251917082
 10
773.0551163291
 20
-398.732776041
 10
769.6745453926
 20
-406.3011105448
 10
766.0932564384
 20
-413.8169177892
 10
762.3175322643
 20
-421.2670124942
 10
758.3539967734
 20
-428.6383246623
 10
754.209603354
 20
-435.9179225071
 10
749.8916226802
 20
-443.0930351404
 10
745.4076299575
 20
-450.1510749764
 10
740.7654916328
 20
-457.0796598151
 10
735.973351594
 20
-463.8666345642
 10
731.0396168833
 20
-470.5000925638
 10
725.9729429477
 20
-476.9683964744
 10
720.7822184551
 20
-483.2601986932
 10
715.4765497
 20
-489.364461261
 10
710.0652446282
 20
-495.270475227
 10
704.5577965077
 20
-500.9678794359
 10
698.9638672739
 20
-506.4466787047
 10
693.2932705796
 20
-511.6972613578
 10
687.5559545781
 20
-516.710416089
 10
681.7619844713
 20
-521.4773481214
 10
675.9215248516
 20
-525.9896946365
 10
670.0448218698
 20
-530.2395394452
 10
664.1421852597
 20
-534.2194268756
 10
658.2239702519
 20
-537.9223748526
 10
652.3005594063
 20
-541.3418871474
 10
646.3823443984
 20
-544.4719647734
 10
640.4797077883
 20
-547.3071165108
 10
634.6030048065
 20
-549.8423685401
 10
628.7625451868
 20
-552.0732731678
 10
622.96857508
 20
-553.995916629
 10
617.2312590786
 20
-555.6069259538
 10
611.5606623842
 20
-556.9034748844
 10
605.9667331504
 20
-557.8832888335
 10
600.4592850299
 20
-558.5446488744
 10
595.0479799582
 20
-558.8863947569
 10
589.742311203
 20
-558.9079269426
 10
584.5515867104
 20
-558.6092076567
 10
579.4849127748
 20
-557.9907609543
 10
574.5511780641
 20
-557.0536718011
 10
569.7590380253
 20
-555.79958417
 10
565.1168997006
 20
-554.2306981567
 10
560.6329069779
 20
-552.3497661204
 10
556.3149263041
 20
-550.1600878551
 10
552.1705328847
 20
-547.6655048005
 10
548.2069973939
 20
-544.870393303
 10
544.4312732197
 20
-541.7796569378
 10
540.8499842655
 20
-538.3987179069
 10
537.469413329
 20
-534.7335075261
 10
534.2954910802
 20
-530.7904558199
 10
531.3337856574
 20
-526.5764802408
 10
528.5894928983
 20
-522.098973534
 10
526.0674272248
 20
-517.3657907676
 10
523.7720131972
 20
-512.3852355526
 10
521.7072777516
 20
-507.1660454752
 10
519.8768431357
 20
-501.7173767683
 10
518.2839205536
 20
-496.0487882483
 10
516.931304533
 20
-490.1702245457
 10
515.8213680219
 20
-484.0919986587
 10
514.9560582262
 20
-477.8247738609
 10
514.3368931932
 20
-471.3795449943
 10
513.9649591488
 20
-464.7676191804
 10
513.8409085918
 20
-458.0005959839
  0
LWPOLYLINE
  5
E3
330
1F
100
AcDbEntity
  8
0
  6
Continuous
 62
     7
370
    25
100
AcDbPolyline
 90
      142
 70
   128
 43
0.0
 10
530.5993393059
 20
-448.3261598588
 10
530.7230926555
 20
-441.8419255567
 10
531.0941070036
 20
-435.2276825255
 10
531.7116457355
 20
-428.4965627324
 10
532.5744827852
 20
-421.6619301928
 10
533.6809050697
 20
-414.7373544368
 10
535.0287158898
 20
-407.7365835687
 10
536.6152392921
 20
-400.6735169711
 10
538.437325381
 20
-393.5621777088
 10
540.4913565734
 20
-386.4166846877
 10
542.7732547804
 20
-379.2512246228
 10
545.2784895044
 20
-372.0800238718
 10
548.0020868337
 20
-364.91732019
 10
550.938639318
 20
-357.7773344625
 10
554.082316704
 20
-350.6742424701
 10
557.4268775114
 20
-343.6221467443
 10
560.9656814243
 20
-336.6350485687
 10
564.6917024749
 20
-329.7268201797
 10
568.5975429936
 20
-322.9111772254
 10
572.6754482953
 20
-316.201651534
 10
576.9173220767
 20
-309.6115642477
 10
581.31474249
 20
-303.1539993749
 10
585.858978864
 20
-296.8417778127
 10
590.541009038
 20
-290.6874318929
 10
595.3515372744
 20
-284.7031804995
 10
600.2810127149
 20
-278.9009048099
 10
605.319648342
 20
-273.2921247053
 10
610.4574404114
 20
-267.8879758994
 10
615.6841883122
 20
-262.6991878294
 10
620.9895148205
 20
-257.7360623538
 10
626.3628867015
 20
-253.0084532988
 10
631.7936356227
 20
-248.5257468946
 10
637.2709793348
 20
-244.2968431397
 10
642.7840430789
 20
-240.3301381312
 10
648.3218811773
 20
-236.6335073946
 10
653.873498765
 20
-233.2142902482
 10
659.4278736191
 20
-230.079275231
 10
664.9739780426
 20
-227.2346866252
 10
670.5008007585
 20
-224.6861720981
 10
675.9973687718
 20
-222.4387914895
 10
681.4527691555
 20
-220.4970067655
 10
686.8561707173
 20
-218.86467316
 10
692.1968455033
 20
-217.5450315201
 10
697.4641900983
 20
-216.5407018724
 10
702.6477466771
 20
-215.8536782202
 10
707.7372237678
 20
-215.4853245855
 10
712.7225166849
 20
-215.4363723003
 10
717.5937275907
 20
-215.7069185548
 10
722.3411851468
 20
-216.2964262046
 10
726.9554637158
 20
-217.2037248366
 10
731.4274020746
 20
-218.4270130936
 10
735.7481216036
 20
-219.9638622498
 10
739.9090439141
 20
-221.8112210335
 10
743.9019078801
 20
-223.9654216849
 10
747.7187860396
 20
-226.422187238
 10
751.3521003344
 20
-229.1766400122
 10
754.7946371553
 20
-232.2233112964
 10
758.0395616642
 20
-235.5561522069
 10
761.0804313637
 20
-239.1685456964
 10
763.9112088885
 20
-243.0533196922
 10
766.5262739919
 20
-247.2027613351
 10
768.9204347042
 20
-251.6086322927
 10
771.088937641
 20
-256.262185116
 10
773.0274774402
 20
-261.1541806068
 10
774.7322053108
 20
-266.2749061608
 10
776.1997366731
 20
-271.6141950514
 10
777.4271578796
 20
-277.1614466147
 10
778.4120319991
 20
-282.9056472963
 10
779.1524036551
 20
-288.8353925173
 10
779.6468029084
 20
-294.9389093176
 10
779.8942481748
 20
-301.2040797295
 10
779.8942481748
 20
-307.618464837
 10
779.6468029084
 20
-314.1693294724
 10
779.1524036551
 20
-320.8436675001
 10
778.4120319991
 20
-327.62822764
 10
777.4271578796
 20
-334.5095397758
 10
776.1997366731
 20
-341.4739416993
 10
774.7322053108
 20
-348.507606235
 10
773.0274774402
 20
-355.5965686932
 10
771.088937641
 20
-362.726754595
 10
768.9204347042
 20
-369.8840076164
 10
766.5262739919
 20
-377.0541176939
 10
763.9112088885
 20
-384.2228492378
 10
761.0804313637
 20
-391.3759693951
 10
758.0395616642
 20
-398.4992763078
 10
754.7946371553
 20
-405.5786273094
 10
751.3521003344
 20
-412.5999670039
 10
747.7187860396
 20
-419.5493551712
 10
743.9019078801
 20
-426.4129944443
 10
739.9090439141
 20
-433.1772577028
 10
735.7481216036
 20
-439.8287151281
 10
731.4274020746
 20
-446.3541608673
 10
726.9554637158
 20
-452.7406392517
 10
722.3411851468
 20
-458.9754705198
 10
717.5937275907
 20
-465.0462759912
 10
712.7225166849
 20
-470.9410026435
 10
707.7372237678
 20
-476.6479470427
 10
702.6477466771
 20
-482.1557785788
 10
697.4641900983
 20
-487.4535619622
 10
692.1968455033
 20
-492.5307789344
 10
686.8561707173
 20
-497.3773491511
 10
681.4527691555
 20
-501.9836501957
 10
675.9973687718
 20
-506.3405366838
 10
670.5008007585
 20
-510.4393584206
 10
664.9739780426
 20
-514.2719775751
 10
659.4278736191
 20
-517.8307848365
 10
653.873498765
 20
-521.1087145225
 10
648.3218811773
 20
-524.0992586072
 10
642.7840430789
 20
-526.7964796421
 10
637.2709793348
 20
-529.1950225444
 10
631.7936356227
 20
-531.2901252293
 10
626.3628867015
 20
-533.0776280643
 10
620.9895148205
 20
-534.553982128
 10
615.6841883122
 20
-535.716256256
 10
610.4574404114
 20
-536.5621428608
 10
605.319648342
 20
-537.0899625126
 10
600.2810127149
 20
-537.2986672745
 10
595.3515372744
 20
-537.1878427824
 10
590.541009038
 20
-536.7577090682
 10
585.858978864
 20
-536.0091201225
 10
581.31474249
 20
-534.9435621993
 10
576.9173220767
 20
-533.5631508654
 10
572.6754482953
 20
-531.8706267995
 10
568.5975429936
 20
-529.8693503517
 10
564.6917024749
 20
-527.5632948709
 10
560.9656814243
 20
-524.957038817
 10
557.4268775114
 20
-522.05575667
 10
554.082316704
 20
-518.8652086572
 10
550.938639318
 20
-515.3917293162
 10
548.0020868337
 20
-511.6422149188
 10
545.2784895044
 20
-507.6241097787
 10
542.7732547804
 20
-503.3453914718
 10
540.4913565734
 20
-498.8145549972
 10
538.437325381
 20
-494.0405959114
 10
536.6152392921
 20
-489.0329924681
 10
535.0287158898
 20
-483.8016868005
 10
533.6809050697
 20
-478.3570651818
 10
532.5744827852
 20
-472.7099374043
 10
531.7116457355
 20
-466.8715153173
 10
531.0941070036
 20
-460.8533905676
 10
530.7230926555
 20
-454.6675115847
 10
530.5993393059
 20
-448.3261598588
  0
ARC
  5
E4
330
1F
100
AcDbEntity
  8
0
  6
Continuous
 62
     7
370
    25
100
AcDbCircle
 10
854.3516891068
 20
-338.4680634882
 30
0.0
 40
67.64731543832568
100
AcDbArc
 50
48.3185392644
 51
59.9586542729
  0
ARC
  5
E5
330
1F
100
AcDbEntity
  8
0
  6
Continuous
 62
     7
370
    25
100
AcDbCircle
 10
721.9686922361
 20
-567.8158872826
 30
0.0
 40
67.54017385927973
100
AcDbArc
 50
240.0345348723
 51
252.3392603774
  0
LWPOLYLINE
  5
E6
330
1F
100
AcDbEntity
  8
0
  6
Continuous
 62
     7
370
    25
100
AcDbPolyline
 90
       44
 70
   128
 43
0.0
 10
929.1039855243
 20
-352.6225377519
 10
929.4384519718
 20
-355.7526175712
 10
929.9388920097
 20
-362.2995289374
 10
930.1893346676
 20
-369.0090456346
 10
930.1893346676
 20
-375.8692383869
 10
929.9388920097
 20
-382.8679100221
 10
929.4384519718
 20
-389.9926171573
 10
928.6889043181
 20
-397.2306923232
 10
927.6915817169
 20
-404.5692664864
 10
926.4482573715
 20
-411.9952919297
 10
924.961141867
 20
-419.495565451
 10
923.2328792407
 20
-427.0567518376
 10
921.2665422804
 20
-434.6654075761
 10
919.0656270615
 20
-442.3080047542
 10
916.6340467308
 20
-449.9709551131
 10
913.9761245496
 20
-457.6406342066
 10
911.0965862064
 20
-465.3034056252
 10
908.0005514153
 20
-472.945645241
 10
904.6935248133
 20
-480.5537654308
 10
901.1813861728
 20
-488.1142392346
 10
897.4703799483
 20
-495.6136244058
 10
893.5671041734
 20
-503.0385873113
 10
889.47849873
 20
-510.375926638
 10
885.2118330094
 20
-517.6125968643
 10
880.7746929874
 20
-524.7357314547
 10
876.1749677372
 20
-531.7326657359
 10
871.4208354024
 20
-538.5909594138
 10
866.5207486567
 20
-545.2984186929
 10
861.4834196756
 20
-551.8431179551
 10
856.3178046462
 20
-558.213420964
 10
851.0330878435
 20
-564.3980015534
 10
845.6386653012
 20
-570.3858637647
 10
840.1441281055
 20
-576.1663613973
 10
834.5592453433
 20
-581.7292169375
 10
828.8939467321
 20
-587.064539831
 10
823.1583049663
 20
-592.1628440685
 10
817.3625178075
 20
-597.0150650511
 10
811.5168899538
 20
-601.612575707
 10
805.6318147182
 20
-605.94720183
 10
799.7177555497
 20
-610.011236613
 10
793.7852274297
 20
-613.7974543505
 10
787.8447781767
 20
-617.2991232855
 10
781.9069696927
 20
-620.5100175785
 10
778.5339772523
 20
-622.204818361
  0
LWPOLYLINE
  5
E7
330
1F
100
AcDbEntity
  8
0
  6
Continuous
 62
     7
370
    25
100
AcDbPolyline
 90
       24
 70
   128
 43
0.0
 10
921.6670052457
 20
-433.9161861599
 10
920.2769442136
 20
-439.6199592927
 10
918.3169561163
 20
-446.8290346514
 10
916.1244605346
 20
-454.0654766043
 10
913.7038104655
 20
-461.3149178658
 10
911.0598118857
 20
-468.5629653414
 10
908.1977142095
 20
-475.7952287035
 10
905.1231998671
 20
-482.9973489629
 10
901.8423730219
 20
-490.1550269764
 10
898.3617474522
 20
-497.2540518368
 10
894.6882336176
 20
-504.2803290874
 10
890.82912494
 20
-511.2199087051
 10
886.7920833223
 20
-518.0590127969
 10
882.5851239371
 20
-524.7840629547
 10
878.2165993128
 20
-531.381707214
 10
873.6951827505
 20
-537.8388465627
 10
869.0298511045
 20
-544.1426609483
 10
864.2298669589
 20
-550.280634731
 10
859.3047602377
 20
-556.2405815319
 10
854.2643092847
 20
-562.0106684283
 10
849.1185214485
 20
-567.5794394469
 10
843.8776132146
 20
-572.9358383082
 10
838.5519899212
 20
-578.069230378
 10
838.3288891814
 20
-578.2776792588
  0
LWPOLYLINE
  5
E8
330
1F
100
AcDbEntity
  8
0
  6
Continuous
 62
     7
370
    25
100
AcDbPolyline
 90
       73
 70
   128
 43
0.0
 10
1012.7056292014
 20
-377.7536529753
 10
1013.2058175254
 20
-378.0456785538
 10
1017.0486755703
 20
-380.5191662774
 10
1020.7067203084
 20
-383.2923674539
 10
1024.1726890306
 20
-386.359776149
 10
1027.4397003767
 20
-389.7153023068
 10
1030.5012679981
 20
-393.3522838405
 10
1033.3513134358
 20
-397.2634998601
 10
1035.9841781882
 20
-401.4411850082
 10
1038.3946349462
 20
-405.8770448775
 10
1040.577897971
 20
-410.5622724791
 10
1042.5296325959
 20
-415.487565727
 10
1044.2459638325
 20
-420.6431459076
 10
1045.7234840641
 20
-426.0187770935
 10
1046.9592598108
 20
-431.6037864667
 10
1047.9508375545
 20
-437.3870855079
 10
1048.6962486092
 20
-443.3571920124
 10
1049.1940130304
 20
-449.5022528862
 10
1049.4431425527
 20
-455.8100676798
 10
1049.4431425527
 20
-462.2681128107
 10
1049.1940130304
 20
-468.8635664283
 10
1048.6962486092
 20
-475.5833338698
 10
1047.9508375545
 20
-482.4140736589
 10
1046.9592598108
 20
-489.3422239942
 10
1045.7234840641
 20
-496.3540296743
 10
1044.2459638325
 20
-503.4355694083
 10
1042.5296325959
 20
-510.5727834544
 10
1040.577897971
 20
-517.7515015348
 10
1038.3946349462
 20
-524.9574709692
 10
1035.9841781882
 20
-532.1763849724
 10
1033.3513134358
 20
-539.3939110588
 10
1030.5012679981
 20
-546.5957194985
 10
1027.4397003767
 20
-553.7675117674
 10
1024.1726890306
 20
-560.8950489358
 10
1020.7067203084
 20
-567.9641799385
 10
1017.0486755703
 20
-574.9608696701
 10
1013.2058175254
 20
-581.8712268509
 10
1009.1857758127
 20
-588.6815316064
 10
1004.9965318529
 20
-595.3782627068
 10
1000.6464030021
 20
-601.9481244124
 10
996.1440260384
 20
-608.3780728709
 10
991.4983400146
 20
-614.6553420149
 10
986.7185685103
 20
-620.7674689075
 10
981.8142013192
 20
-626.7023184866
 10
976.7949756086
 20
-632.4481076576
 10
971.6708565865
 20
-637.993428688
 10
966.4520177168
 20
-643.3272718563
 10
961.148820521
 20
-648.4390473104
 10
955.7717940064
 20
-653.3186060935
 10
950.3316137614
 20
-657.9562602932
 10
944.8390807601
 20
-662.3428022764
 10
939.3050999186
 20
-666.4695229701
 10
933.7406584435
 20
-670.3282291522
 10
928.1568040182
 20
-673.9112597189
 10
922.564622869
 20
-677.2115008946
 10
916.9752177538
 20
-680.2224003559
 10
911.399685919
 20
-682.9379802407
 10
905.8490970672
 20
-685.3528490164
 10
900.3344713786
 20
-687.4622121847
 10
894.8667576321
 20
-689.2618818002
 10
889.4568114671
 20
-690.7482847855
 10
884.1153738312
 20
-691.918470025
 10
878.8530496542
 20
-692.7701142243
 10
873.6802867937
 20
-693.3015265227
 10
868.6073552916
 20
-693.5116518502
 10
863.6443269837
 20
-693.4000730224
 10
858.8010555034
 20
-692.9670115688
 10
854.0871567179
 20
-692.2133272927
 10
849.5119896369
 20
-691.1405165646
 10
845.0846378312
 20
-689.7507093509
 10
840.8138913978
 20
-688.0466649851
 10
836.7082295087
 20
-686.0317666896
 10
835.2200541585
 20
-685.2009991205
  0
LWPOLYLINE
  5
E9
330
1F
100
AcDbEntity
  8
0
  6
Continuous
 62
     1
370
    25
100
AcDbPolyline
 90
       71
 70
   128
 43
0.0
 10
899.3363914351
 20
-287.9454364539
 10
902.6380208591
 20
-291.0790322393
 10
906.0185917957
 20
-294.7442426201
 10
909.1925140444
 20
-298.6872943263
 10
912.1542194672
 20
-302.9012699054
 10
914.8985122264
 20
-307.3787766122
 10
917.4205778998
 20
-312.1119593786
 10
919.7159919275
 20
-317.0925145936
 10
921.780727373
 20
-322.311704671
 10
923.611161989
 20
-327.7603733779
 10
925.204084571
 20
-333.4289618979
 10
926.5567005916
 20
-339.3075256005
 10
927.6666371027
 20
-345.3857514875
 10
928.5319468985
 20
-351.6529762853
 10
929.1511119315
 20
-358.0982051518
 10
929.5230459758
 20
-364.7101309657
 10
929.6470965329
 20
-371.4771541623
 10
929.5230459758
 20
-378.3874030835
 10
929.1511119315
 20
-385.4287548044
 10
928.5319468985
 20
-392.5888564016
 10
927.6666371027
 20
-399.8551466238
 10
926.5567005916
 20
-407.2148779289
 10
925.204084571
 20
-414.6551388472
 10
923.611161989
 20
-422.162876633
 10
921.780727373
 20
-429.7249201631
 10
919.7159919275
 20
-437.3280030433
 10
917.4205778998
 20
-444.9587868829
 10
914.8985122264
 20
-452.6038846941
 10
912.1542194672
 20
-460.2498843774
 10
909.1925140444
 20
-467.8833722512
 10
906.0185917957
 20
-475.4909565841
 10
902.6380208591
 20
-483.0592910879
 10
899.0567319049
 20
-490.5750983322
 10
895.2810077308
 20
-498.0251930372
 10
891.31747224
 20
-505.3965052053
 10
887.1730788205
 20
-512.6761030501
 10
882.8550981468
 20
-519.8512156834
 10
878.371105424
 20
-526.9092555195
 10
873.7289670993
 20
-533.8378403581
 10
868.9368270606
 20
-540.6248151072
 10
864.0030923498
 20
-547.2582731068
 10
858.9364184142
 20
-553.7265770174
 10
853.7456939216
 20
-560.0183792362
 10
848.4400251665
 20
-566.122641804
 10
843.0287200947
 20
-572.02865577
 10
837.5212719743
 20
-577.7260599789
 10
831.9273427405
 20
-583.2048592477
 10
826.2567460461
 20
-588.4554419008
 10
820.5194300446
 20
-593.468596632
 10
814.7254599378
 20
-598.2355286644
 10
808.8850003181
 20
-602.7478751795
 10
803.0082973363
 20
-606.9977199882
 10
797.1056607263
 20
-610.9776074186
 10
791.1874457184
 20
-614.6805553957
 10
785.2640348728
 20
-618.1000676904
 10
779.3458198649
 20
-621.2301453164
 10
773.4431832549
 20
-624.0652970538
 10
767.566480273
 20
-626.6005490831
 10
761.7260206533
 20
-628.8314537108
 10
755.9320505466
 20
-630.754097172
 10
750.1947345451
 20
-632.3651064968
 10
744.5241378507
 20
-633.6616554275
 10
738.9302086169
 20
-634.6414693765
 10
733.4227604964
 20
-635.3028294175
 10
728.0114554247
 20
-635.6445752999
 10
722.7057866696
 20
-635.6661074856
 10
717.5150621769
 20
-635.3673881997
 10
712.4483882414
 20
-634.7489414973
 10
707.5146535306
 20
-633.8118523442
 10
702.7225134919
 20
-632.557764713
 10
701.4783405
 20
-632.1728649205
  0
LWPOLYLINE
  5
EA
330
1F
100
AcDbEntity
  8
0
  6
Continuous
 62
     1
370
    25
100
AcDbPolyline
 90
       34
 70
   128
 43
0.0
 10
662.7682084896
 20
-515.7216666627
 10
663.0380232035
 20
-511.3972840321
 10
663.6555619355
 20
-504.6661642391
 10
664.5183989852
 20
-497.8315316994
 10
665.6248212696
 20
-490.9069559435
 10
666.9726320898
 20
-483.9061850754
 10
668.559155492
 20
-476.8431184777
 10
670.3812415809
 20
-469.7317792155
 10
672.4352727733
 20
-462.5862861944
 10
674.7171709803
 20
-455.4208261295
 10
677.2224057043
 20
-448.2496253785
 10
679.9460030337
 20
-441.0869216967
 10
682.8825555179
 20
-433.9469359692
 10
686.026232904
 20
-426.8438439767
 10
689.3707937114
 20
-419.791748251
 10
692.9095976242
 20
-412.8046500753
 10
696.6356186749
 20
-405.8964216863
 10
700.5414591935
 20
-399.0807787321
 10
704.6193644953
 20
-392.3712530407
 10
708.8612382767
 20
-385.7811657544
 10
713.2586586899
 20
-379.3236008815
 10
717.8028950639
 20
-373.0113793194
 10
722.4849252379
 20
-366.8570333995
 10
727.2954534744
 20
-360.8727820062
 10
732.2249289148
 20
-355.0705063166
 10
737.263564542
 20
-349.4617262119
 10
742.4013566113
 20
-344.057577406
 10
747.6281045122
 20
-338.8687893361
 10
752.9334310204
 20
-333.9056638605
 10
758.3068029014
 20
-329.1780548055
 10
763.7375518226
 20
-324.6953484012
 10
769.2148955347
 20
-320.4664446464
 10
774.7279592789
 20
-316.4997396378
 10
779.7002373685
 20
-313.1675044471
  0
LWPOLYLINE
  5
EB
330
1F
100
AcDbEntity
  8
0
  6
Continuous
 62
     1
370
    25
100
AcDbPolyline
 90
       34
 70
   128
 43
0.0
 10
667.0857299605
 20
-512.8414629212
 10
667.127461607
 20
-512.2701149452
 10
667.7471674251
 20
-505.5611217518
 10
668.6130076585
 20
-498.7485393397
 10
669.7232386203
 20
-491.8460873431
 10
671.0756244532
 20
-484.8676663819
 10
672.6674416319
 20
-477.827330067
 10
674.4954844486
 20
-470.739256699
 10
676.5560714683
 20
-463.6177207142
 10
678.8450529429
 20
-456.4770639384
 10
681.3578191685
 20
-449.331666704
 10
684.0893097682
 20
-442.1959188902
 10
687.0340238835
 20
-435.0841909434
 10
690.186031252
 20
-428.0108049372
 10
693.5389841504
 20
-420.9900057297
 10
697.0861301778
 20
-414.0359322761
 10
700.8203258541
 20
-407.162589155
 10
704.7340510062
 20
-400.3838183646
 10
708.8194239124
 20
-393.7132714472
 10
713.0682171755
 20
-387.1643819966
 10
717.4718742913
 20
-380.7503386045
 10
722.0215268803
 20
-374.4840583008
 10
726.7080125478
 20
-368.3781605399
 10
731.5218933352
 20
-362.4449417876
 10
736.4534747274
 20
-356.6963507566
 10
741.4928251757
 20
-351.1439643444
 10
746.629796099
 20
-345.7989643182
 10
751.8540423214
 20
-340.6721147967
 10
757.1550429063
 20
-335.7737405726
 10
762.5221223441
 20
-331.1137063196
 10
767.944472051
 20
-326.7013967267
 10
773.4111721362
 20
-322.5456975981
 10
778.9112133935
 20
-318.6549779587
 10
779.3651545026
 20
-318.3467210594
  0
LWPOLYLINE
  5
EC
330
1F
100
AcDbEntity
  8
0
  6
Continuous
 62
     1
370
    25
100
AcDbPolyline
 90
       26
 70
   128
 43
0.0
 10
689.7928995847
 20
-494.7491345201
 10
690.2904216908
 20
-491.9666956018
 10
691.6486804994
 20
-485.2825599961
 10
693.2467075914
 20
-478.5406617007
 10
695.0809371433
 20
-471.756044527
 10
697.1472762719
 20
-464.9438476088
 10
699.4411141666
 20
-458.1192716212
 10
701.957332378
 20
-451.2975448618
 10
704.6903162395
 20
-444.4938892703
 10
707.6339673954
 20
-437.7234864629
 10
710.7817174089
 20
-431.0014438556
 10
714.1265424189
 20
-424.3427609539
 10
717.6609788129
 20
-417.7622958831
 10
721.3771398812
 20
-411.2747322337
 10
725.2667334155
 20
-404.8945462973
 10
729.3210802116
 20
-398.6359747632
 10
733.5311334365
 20
-392.512982952
 10
737.8874988152
 20
-386.5392336525
 10
742.3804555932
 20
-380.7280566353
 10
746.9999782269
 20
-375.0924189086
 10
751.735758755
 20
-369.6448957839
 10
756.5772297995
 20
-364.3976428154
 10
761.5135881452
 20
-359.3623686762
 10
766.5338188465
 20
-354.5503090318
 10
771.6267198056
 20
-349.972201469
 10
775.0530175273
 20
-347.0582757722
  0
LWPOLYLINE
  5
ED
330
1F
100
AcDbEntity
  8
0
  6
Continuous
 62
     1
370
    25
100
AcDbPolyline
 90
       29
 70
   128
 43
0.0
 10
926.0419905198
 20
-414.1632777765
 10
925.3094928433
 20
-419.1153083457
 10
924.0737170965
 20
-426.1271140259
 10
922.596196865
 20
-433.2086537599
 10
920.8798656284
 20
-440.3458678059
 10
918.9281310034
 20
-447.5245858863
 10
916.7448679787
 20
-454.7305553208
 10
914.3344112207
 20
-461.949469324
 10
911.7015464682
 20
-469.1669954104
 10
908.8515010306
 20
-476.3688038501
 10
905.7899334091
 20
-483.540596119
 10
902.522922063
 20
-490.6681332874
 10
899.0569533409
 20
-497.73726429
 10
895.3989086027
 20
-504.7339540217
 10
891.5560505579
 20
-511.6443112025
 10
887.5360088451
 20
-518.454615958
 10
883.3467648853
 20
-525.1513470584
 10
878.9966360345
 20
-531.721208764
 10
874.4942590709
 20
-538.1511572225
 10
869.8485730471
 20
-544.4284263665
 10
865.0688015427
 20
-550.5405532591
 10
860.1644343517
 20
-556.4754028382
 10
855.1452086411
 20
-562.2211920092
 10
850.0210896189
 20
-567.7665130396
 10
844.8022507492
 20
-573.1003562078
 10
839.4990535535
 20
-578.212131662
 10
834.1220270389
 20
-583.0916904451
 10
828.6818467938
 20
-587.7293446448
 10
823.4111437529
 20
-591.9443817535
  0
LWPOLYLINE
  5
EE
330
1F
100
AcDbEntity
  8
0
  6
Continuous
 62
     1
370
    25
100
AcDbPolyline
 90
       24
 70
   128
 43
0.0
 10
694.9816977554
 20
-489.8840191215
 10
695.7500841285
 20
-486.2677297856
 10
697.3527932854
 20
-479.5528575001
 10
699.1922490738
 20
-472.7959342019
 10
701.2642845345
 20
-466.0122664958
 10
703.5642058408
 20
-459.2172215707
 10
706.0868029313
 20
-452.4261923891
 10
708.8263613121
 20
-445.6545628163
 10
711.7766750025
 20
-438.9176727712
 10
714.9310605929
 20
-432.2307834765
 10
718.2823723854
 20
-425.6090428873
 10
721.823018581
 20
-419.0674513758
 10
725.5449784772
 20
-412.6208277508
 10
729.4398206378
 20
-406.2837756881
 10
733.4987219925
 20
-400.0706506491
 10
737.7124878243
 20
-393.9955273601
 10
742.0715725982
 20
-388.0721679294
 10
746.5661015853
 20
-382.3139906714
 10
751.1858932319
 20
-376.7340397094
 10
755.9204822238
 20
-371.3449554272
 10
760.7591431943
 20
-366.1589458339
 10
765.69091502
 20
-361.1877589094
 10
770.7046256515
 20
-356.4426559907
 10
773.4347530333
 20
-353.9846163879
  0
ENDSEC
  0
SECTION
  2
OBJECTS
  0
DICTIONARY
  5
C
330
0
100
AcDbDictionary
281
     1
  3
ACAD_GROUP
350
D
  3
ACAD_LAYOUT
350
1A
  3
ACAD_MLINESTYLE
350
17
  3
ACAD_PLOTSETTINGS
350
19
  3
ACAD_PLOTSTYLENAME
350
E
  3
ACAD_SCALELIST
350
47
  3
DWGPROPS
350
EF
  0
DICTIONARY
  5
D
102
{ACAD_REACTORS
330
C
102
}
330
C
100
AcDbDictionary
281
     1
  0
DICTIONARY
  5
1A
102
{ACAD_REACTORS
330
C
102
}
330
C
100
AcDbDictionary
281
     1
  3
Layout1
350
1E
  3
Layout2
350
26
  3
Model
350
22
  0
DICTIONARY
  5
17
102
{ACAD_REACTORS
330
C
102
}
330
C
100
AcDbDictionary
281
     1
  3
Standard
350
18
  0
DICTIONARY
  5
19
102
{ACAD_REACTORS
330
C
102
}
330
C
100
AcDbDictionary
281
     1
  0
ACDBDICTIONARYWDFLT
  5
E
102
{ACAD_REACTORS
330
C
102
}
330
C
100
AcDbDictionary
281
     1
  3
Normal
350
F
100
AcDbDictionaryWithDefault
340
F
  0
DICTIONARY
  5
47
102
{ACAD_REACTORS
330
C
102
}
330
C
100
AcDbDictionary
281
     1
  3
A0
350
48
  3
A1
350
49
  3
A2
350
4A
  3
A3
350
4B
  3
A4
350
4C
  3
A5
350
4D
  3
A6
350
4E
  3
A7
350
4F
  3
A8
350
50
  3
A9
350
51
  3
B0
350
52
  3
B1
350
53
  3
B2
350
54
  3
B3
350
55
  3
B4
350
56
  3
B5
350
57
  3
B6
350
58
  3
B7
350
59
  3
B8
350
5A
  3
B9
350
5B
  3
C0
350
5C
  3
C1
350
5D
  3
C2
350
5E
  3
C3
350
5F
  3
C4
350
60
  3
C5
350
61
  3
C6
350
62
  3
C7
350
63
  3
C8
350
64
  3
C9
350
65
  3
D0
350
66
  3
D1
350
67
  3
D2
350
68
  0
XRECORD
  5
EF
102
{ACAD_REACTORS
330
C
102
}
330
C
100
AcDbXrecord
280
     1
  1
DWGPROPS COOKIE
  2

  3

  4

  6

  7

  8
b.kav
  9

300
=
301
=
302
=
303
=
304
=
305
=
306
=
307
=
308
=
309
=
 40
0.0
 41
2459947.423337326
 42
2459947.423337431
  1

 90
        0
  0
LAYOUT
  5
1E
102
{ACAD_REACTORS
330
1A
102
}
330
1A
100
AcDbPlotSettings
  1

  2
none_device
  4

  6

 40
0.0
 41
0.0
 42
0.0
 43
0.0
 44
0.0
 45
0.0
 46
0.0
 47
0.0
 48
0.0
 49
0.0
140
0.0
141
0.0
142
1.0
143
1.0
 70
   688
 72
     1
 73
     0
 74
     5
  7

 75
    16
147
1.0
148
0.0
149
0.0
100
AcDbLayout
  1
Layout1
 70
     1
 71
     1
 10
0.0
 20
0.0
 11
420.0
 21
297.0
 12
0.0
 22
0.0
 32
0.0
 14
1.0000000000E+20
 24
1.0000000000E+20
 34
1.0000000000E+20
 15
-1.0000000000E+20
 25
-1.0000000000E+20
 35
-1.0000000000E+20
146
0.0
 13
0.0
 23
0.0
 33
0.0
 16
1.0
 26
0.0
 36
0.0
 17
0.0
 27
1.0
 37
0.0
 76
     0
330
1B
  0
LAYOUT
  5
26
102
{ACAD_REACTORS
330
1A
102
}
330
1A
100
AcDbPlotSettings
  1

  2
none_device
  4

  6

 40
0.0
 41
0.0
 42
0.0
 43
0.0
 44
0.0
 45
0.0
 46
0.0
 47
0.0
 48
0.0
 49
0.0
140
0.0
141
0.0
142
1.0
143
1.0
 70
   688
 72
     1
 73
     0
 74
     5
  7

 75
    16
147
1.0
148
0.0
149
0.0
100
AcDbLayout
  1
Layout2
 70
     1
 71
     2
 10
0.0
 20
0.0
 11
0.0
 21
0.0
 12
0.0
 22
0.0
 32
0.0
 14
0.0
 24
0.0
 34
0.0
 15
0.0
 25
0.0
 35
0.0
146
0.0
 13
0.0
 23
0.0
 33
0.0
 16
1.0
 26
0.0
 36
0.0
 17
0.0
 27
1.0
 37
0.0
 76
     0
330
23
  0
LAYOUT
  5
22
102
{ACAD_REACTORS
330
1A
102
}
330
1A
100
AcDbPlotSettings
  1

  2
none_device
  4
Letter_(8.50_x_11.00_Inches)
  6

 40
6.35
 41
6.35
 42
6.35000508
 43
6.35000508
 44
215.9
 45
279.4
 46
0.0
 47
0.0
 48
0.0
 49
0.0
140
0.0
141
0.0
142
1.0
143
1.0
 70
  1712
 72
     1
 73
     0
 74
     0
  7

 75
     0
147
1.0
148
0.0
149
0.0
100
AcDbLayout
  1
Model
 70
     1
 71
     0
 10
0.0
 20
0.0
 11
279.4
 21
215.9
 12
0.0
 22
0.0
 32
0.0
 14
0.0
 24
0.0
 34
0.0
 15
279.4
 25
215.9
 35
0.0
146
0.0
 13
0.0
 23
0.0
 33
0.0
 16
1.0
 26
0.0
 36
0.0
 17
0.0
 27
1.0
 37
0.0
 76
     0
330
1F
331
29
  0
MLINESTYLE
  5
18
102
{ACAD_REACTORS
330
17
102
}
330
17
100
AcDbMlineStyle
  2
Standard
 70
     0
  3

 62
   256
 51
90.0
 52
90.0
 71
     2
 49
0.5
 62
   256
  6
BYLAYER
 49
-0.5
 62
   256
  6
BYLAYER
  0
ACDBPLACEHOLDER
  5
F
102
{ACAD_REACTORS
330
E
102
}
330
E
  0
SCALE
  5
48
102
{ACAD_REACTORS
330
47
102
}
330
47
100
AcDbScale
 70
     0
300
1:1
140
1.0
141
1.0
290
     1
  0
SCALE
  5
49
102
{ACAD_REACTORS
330
47
102
}
330
47
100
AcDbScale
 70
     0
300
1:2
140
1.0
141
2.0
290
     0
  0
SCALE
  5
4A
102
{ACAD_REACTORS
330
47
102
}
330
47
100
AcDbScale
 70
     0
300
1:4
140
1.0
141
4.0
290
     0
  0
SCALE
  5
4B
102
{ACAD_REACTORS
330
47
102
}
330
47
100
AcDbScale
 70
     0
300
1:5
140
1.0
141
5.0
290
     0
  0
SCALE
  5
4C
102
{ACAD_REACTORS
330
47
102
}
330
47
100
AcDbScale
 70
     0
300
1:8
140
1.0
141
8.0
290
     0
  0
SCALE
  5
4D
102
{ACAD_REACTORS
330
47
102
}
330
47
100
AcDbScale
 70
     0
300
1:10
140
1.0
141
10.0
290
     0
  0
SCALE
  5
4E
102
{ACAD_REACTORS
330
47
102
}
330
47
100
AcDbScale
 70
     0
300
1:16
140
1.0
141
16.0
290
     0
  0
SCALE
  5
4F
102
{ACAD_REACTORS
330
47
102
}
330
47
100
AcDbScale
 70
     0
300
1:20
140
1.0
141
20.0
290
     0
  0
SCALE
  5
50
102
{ACAD_REACTORS
330
47
102
}
330
47
100
AcDbScale
 70
     0
300
1:30
140
1.0
141
30.0
290
     0
  0
SCALE
  5
51
102
{ACAD_REACTORS
330
47
102
}
330
47
100
AcDbScale
 70
     0
300
1:40
140
1.0
141
40.0
290
     0
  0
SCALE
  5
52
102
{ACAD_REACTORS
330
47
102
}
330
47
100
AcDbScale
 70
     0
300
1:50
140
1.0
141
50.0
290
     0
  0
SCALE
  5
53
102
{ACAD_REACTORS
330
47
102
}
330
47
100
AcDbScale
 70
     0
300
1:100
140
1.0
141
100.0
290
     0
  0
SCALE
  5
54
102
{ACAD_REACTORS
330
47
102
}
330
47
100
AcDbScale
 70
     0
300
2:1
140
2.0
141
1.0
290
     0
  0
SCALE
  5
55
102
{ACAD_REACTORS
330
47
102
}
330
47
100
AcDbScale
 70
     0
300
4:1
140
4.0
141
1.0
290
     0
  0
SCALE
  5
56
102
{ACAD_REACTORS
330
47
102
}
330
47
100
AcDbScale
 70
     0
300
8:1
140
8.0
141
1.0
290
     0
  0
SCALE
  5
57
102
{ACAD_REACTORS
330
47
102
}
330
47
100
AcDbScale
 70
     0
300
10:1
140
10.0
141
1.0
290
     0
  0
SCALE
  5
58
102
{ACAD_REACTORS
330
47
102
}
330
47
100
AcDbScale
 70
     0
300
100:1
140
100.0
141
1.0
290
     0
  0
SCALE
  5
59
102
{ACAD_REACTORS
330
47
102
}
330
47
100
AcDbScale
 70
     0
300
1/128" = 1'-0"
140
0.0078125
141
12.0
290
     0
  0
SCALE
  5
5A
102
{ACAD_REACTORS
330
47
102
}
330
47
100
AcDbScale
 70
     0
300
1/64" = 1'-0"
140
0.015625
141
12.0
290
     0
  0
SCALE
  5
5B
102
{ACAD_REACTORS
330
47
102
}
330
47
100
AcDbScale
 70
     0
300
1/32" = 1'-0"
140
0.03125
141
12.0
290
     0
  0
SCALE
  5
5C
102
{ACAD_REACTORS
330
47
102
}
330
47
100
AcDbScale
 70
     0
300
1/16" = 1'-0"
140
0.0625
141
12.0
290
     0
  0
SCALE
  5
5D
102
{ACAD_REACTORS
330
47
102
}
330
47
100
AcDbScale
 70
     0
300
3/32" = 1'-0"
140
0.09375
141
12.0
290
     0
  0
SCALE
  5
5E
102
{ACAD_REACTORS
330
47
102
}
330
47
100
AcDbScale
 70
     0
300
1/8" = 1'-0"
140
0.125
141
12.0
290
     0
  0
SCALE
  5
5F
102
{ACAD_REACTORS
330
47
102
}
330
47
100
AcDbScale
 70
     0
300
3/16" = 1'-0"
140
0.1875
141
12.0
290
     0
  0
SCALE
  5
60
102
{ACAD_REACTORS
330
47
102
}
330
47
100
AcDbScale
 70
     0
300
1/4" = 1'-0"
140
0.25
141
12.0
290
     0
  0
SCALE
  5
61
102
{ACAD_REACTORS
330
47
102
}
330
47
100
AcDbScale
 70
     0
300
3/8" = 1'-0"
140
0.375
141
12.0
290
     0
  0
SCALE
  5
62
102
{ACAD_REACTORS
330
47
102
}
330
47
100
AcDbScale
 70
     0
300
1/2" = 1'-0"
140
0.5
141
12.0
290
     0
  0
SCALE
  5
63
102
{ACAD_REACTORS
330
47
102
}
330
47
100
AcDbScale
 70
     0
300
3/4" = 1'-0"
140
0.75
141
12.0
290
     0
  0
SCALE
  5
64
102
{ACAD_REACTORS
330
47
102
}
330
47
100
AcDbScale
 70
     0
300
1" = 1'-0"
140
1.0
141
12.0
290
     0
  0
SCALE
  5
65
102
{ACAD_REACTORS
330
47
102
}
330
47
100
AcDbScale
 70
     0
300
1-1/2" = 1'-0"
140
1.5
141
12.0
290
     0
  0
SCALE
  5
66
102
{ACAD_REACTORS
330
47
102
}
330
47
100
AcDbScale
 70
     0
300
3" = 1'-0"
140
3.0
141
12.0
290
     0
  0
SCALE
  5
67
102
{ACAD_REACTORS
330
47
102
}
330
47
100
AcDbScale
 70
     0
300
6" = 1'-0"
140
6.0
141
12.0
290
     0
  0
SCALE
  5
68
102
{ACAD_REACTORS
330
47
102
}
330
47
100
AcDbScale
 70
     0
300
1'-0" = 1'-0"
140
12.0
141
12.0
290
     0
  0
ENDSEC
  0
EOF
